Гражданская Оборона - сияние текст песни

Текст

Сияние

Автор: Егор Летов

Альбом: Зачем Снятся Сны
intro: F#m E

F#m H
Спят леса и селения
Небеса и сомнения
A H E A
Но сиянье обрушится вниз
F#m G# C#m
Станет твоей судьбой

Спят планеты и яблоки
Спят тревоги и радуги

Но сиянье обрушится вниз
Станет твоей душой

соло:
аккорды:
F#m E
F#m E
A H E A
F#m G# C#m
A H E A
F#m G# C#
табы:
E|-------------------------------------------------5-4--------|
B|-------7---7-9-5---------7---7-9-5-----2-5-2-4-------5-----|
G|-6---6---6-------4-6---6---6-------4-2---------4-------6--|
D|---7-----------------7--------------------------------------|
A|------------------------------------------------------------|
E|------------------------------------------------------------|

E|---------------------5---------9-7---------------------------|
B|-7-5-4-------------5---5--7--------9-5-10-9-7-5-4----------|
G|-------6-5-3-5-6-6----------8---------------------6-8-------|
D|-------------------------------------------------------------|
A|-------------------------------------------------------------|
E|-------------------------------------------------------------|

E|--------------------------------------------------------------|
B|--------------------------------------------------------------|
G|-10-------10-------10----13-------13-------13---------------|
D|----11-11----11-11----11----11-11----11-11----11-----------|
A|--------------------------------------------------------------|
E|--------------------------------------------------------------|


Спят зверьки и растения
Небеса и сомнения

Но сиянье обрушится вниз
Станет твоей землёй
Но сиянье обрушится вниз
Станет самим тобой.

Перевод

radiance

Author: Egor Letov

Album: Why dreams
intro: F # m E

F # m H
Sleep forests and villages
Heaven and doubts
       A H E A
       But the radiance fall down
        F # m G # C # m
       Becomes your destiny

Sleeping planets and apples
Sleep anxiety and rainbow

       But the radiance fall down
       Your soul will be

solo:
chords :
F # m E
F # m E
A H E A
F # m G # C # m
A H E A
F # m G # C #
tabs :
E | ------------------------------------------------ -5-4 -------- |
B | ------- 7 --- 7 --- 7-9-5 --------- 7-9-5 ----- 2-5-2-4 - ----- 5 ----- |
G | -6 --- 6 --- 6 ------- 4-6 --- 6 --- 6 ------- 4-2 --------- 4 ------- 6 - |
D | --- 7 ----------------- 7 -------------------------- ------------ |
A | ------------------------------------------------ ------------ |
E | ------------------------------------------------ ------------ |

E | --------------------- 5 --------- 9-7 -------------- ------------- |
B | -7-5-4 ------------- 5 --- 5 - 7 -------- 9-5-10-9-7-5-4 ---------- |
G | ------- 6-5-3-5-6-6 ---------- ------------------- 8 - 6-8 ------- |
D | ------------------------------------------------ ------------- |
A | ------------------------------------------------ ------------- |
E | ------------------------------------------------ ------------- |

E | ------------------------------------------------ -------------- |
B | ------------------------------------------------ -------------- |
G | -10 ------- 10 ------- 10 ---- 13 ------- 13 ------- 13--------- ------ |
D | ---- 11-11 ---- 11-11 ---- 11 ---- 11-11 ---- 11-11 ---- 11---------- - |
A | ------------------------------------------------ -------------- |
E | ------------------------------------------------ -------------- |


Sleeping animals and plants
Heaven and doubts

       But the radiance fall down
       Will be your land
       But the radiance fall down
       You become yourself .

Исполнитель: Гражданская Оборона

Поделись с друзьями

В соц. сетях
В блоге
На форуме