AC/DC - ALBUM - Back In Black текст песни

Текст

Hells Bells
Shoot To Thrill
What Do You Do For Money Honey
Given The Dog A Bone
Let Me Put My Love Into You
Back In Black
You Shook Me All Night Long
Have A Drink On Me
Shake A Leg
Rock N' Roll Ain't Noise Pollution
Tuning: E,A,D,G,B,e

Hells Bells
e|-------------------------|------------------------|------------------------|
B|-------------------------|------------------------|------------------------|
G|-----9-----7----------5--|----------7-------------|----9-----7----------5--|
D|--------7-------7--------|----5----------7--------|-------7-------7--------|
A|--0----------------0-----|-------0----------0--0--|------------------0-----|
E|-------------------------|------------------------|------------------------|
|------------------------|------------------------|
|------------------------|------------------------|
|----9-----7----------5--|----------7----------2--|
|-------7-------7--------|----5-----7----5--5--2--|
|------------------0-----|-------0-------3--2--0--|
|------------------------|------------------------|

|------------------------|------------------------|
|------------------------|------------------------|
|----9-----7----------5--|----------7-------------|
|-------7-------7--------|----5----------7--------|
|------------------0-----|-------0----------0--0--|
|------------------------|------------------------|
|---------------------3--|----3--2---------------|
|---------------------3--|----3--3---------------|
|----9-----7----------0--|----0--2---------------|
|-------7-------7-----0--|----0--0----5--5--2----|
|------------------0--x--|----x--0----3--2--0----|
|---------------------3--|----3------------------|
|------------------------|---------------------|
|------------------------|---------------------|
|----9--7--9----7--5--7--|---------------------|
|----7--7--7----5--5--7--|-----------5----5----|
|------------------------|--------0--3----2----|
|------------------------|---------------------|
|-------------------------|---------------------|
|-------------------------|---------------------|
|-----9--7--9----7--5--7--|---------------------|
|-----7--7--7----5--5--7--|-----------5----5----|
|--0----------------------|--------0--3----2----|
|-------------------------|---------------------|
|-------------------------|------------------3----|-------------------------|
|-----3--3--3----3--3--3--|----3--3----------3----|-----3--3--3----3--3--3--|
|-----2--0--2----2--0--2--|----2--2-----5----0----|-----2--0--2----2--0--2--|
|--0----------------------|----------2--5----0----|--0----------------------|
|-------------------------|----------0--3----x----|-------------------------|
|-------------------------|------------------3----|-------------------------|
|------------------3----|------------------------|-----------------------|
|----3--3----------3----|------------------------|-----------------------|
|----2--2-----5----4----|------------------------|-------------7---------|
|----------2--5----5----|----9--7--9----9--7--9--|----9--9--9--7----7----|
|----------0--3----5----|----7--7--7----7--7--7--|----7--7--7--5----7----|
|------------------3----|------------------------|------------------5----|
|------------------------|-------------3----3----|
|------------------------|-------------3----3----|
|------------------------|-------------0----0----|
|----9--7--9----9--7--9--|----9--9--9--0----0----|
|----7--7--7----7--7--7--|----7--7--7--x----x----|
|------------------------|-------------3----3----|
Shoot To Thrill

e|----------------------|------------------|------------------|
B|----------------------|------------------|------------------|
G|-------------------2--|------------------|------------------|
D|----------2--2-----2--|------------------|------------------|
A|----------0--3--4--0--|------------------|------------------|
E|----------------------|------------------|------------------|
|------------------|----------------------|--3--------2--------3-----|
|------------------|----------------------|--3--------3--------3-----|
|------------------|-------------------2--|--0--------2--------0-----|
|------------------|----------2--2-----2--|--0--------0--------0-----|
|------------------|----------0--3--4--0--|--x--0--0--0--0--0--x--0--|
|------------------|----------------------|--3-----------------3-----|
|-----2--------------------|--3--------2--------3-----|-----2--------------------|
|-----3--------------------|--3--------3--------3-----|-----3--------------------|
|-----2--------2-----------|--0--------2--------0-----|-----2--------2-----------|
|-----0--------0-----2--2--|--0--------0--------0-----|-----0--------0-----2--2--|
|--0--0--0--0-----4--0--0--|--x--0--0--0--0--0--x--0--|--0--0--0--0-----4--0--0--|
|--------------------------|--3-----------------3-----|--------------------------|

|----------3------------|-------------------|----------3------------|
|--5-------3-------5----|----------------5--|--5-------3-------5----|
|--5-------4-------5----|----------------5--|--5-------4-------5----|
|--5----5--5-------5----|----------------5--|--5-------5----5--5----|
|--3----3--5----5--3----|----------------3--|--3----5--5----3--3----|
|----------3----3-------|-------------------|-------3--3------------|
|----------------------|----------5-----------|-------------------|
|----5--5------5--5----|--7-------5------7----|-------------------|
|----5--5------5--5----|--7-------6------7----|-------------------|
|----5--5------5--5----|--7-------7------7----|-------------------|
|----3--3------3--3----|--5----7--7------5----|-------------------|
|----------------------|-------5--5-----------|----------------0--|
|-------------------------|--------------------------|
|----8--8-----8--8-----8--|--8-----8--8-----8--8-----|
|----7--7-----7--7-----7--|--7-----7--7-----7--7-----|
|----6--6-----6--6-----6--|--6-----6--6-----6--6-----|
|----7--7-----7--7-----7--|--7-----7--7-----7--7-----|
|----------0--------0-----|-----0--------0--------0--|
|---------------------3--|------3----3--3--3--2--|
|---------------------3--|------3----3--3--3--3--|
|--2----2----2--2-----0--|------0----0--0--0--2--|
|--2----2----2--2-----0--|------0----0--0--0--0--|
|--0----0----0--0-----2--|------2----2--2--2--0--|
|------------------0--3--|------3----3--3--3-----|
What Do You Do For Money Honey

e|---------3----------|----2--2--------------|---------3----------|
B|---------3----------|----3--3--2--2--------|---------3----------|
G|--1------0----------|----2--2--2--2--------|--1------0----------|
D|--2------0----------|----0--0--2--2--------|--2------0----------|
A|--2------x----------|----------0--0--------|--2------x----------|
E|--0------3----------|----------------------|--0------3----------|
|----2--2--------------|---------3----------|----2--2--------------|
|----3--3--2--2--------|---------3----------|----3--3--2--2--------|
|----2--2--2--2--------|--1------0----------|----2--2--2--2--------|
|----0--0--2--2--------|--2------0----------|----0--0--2--2--------|
|----------0--0--------|--2------x----------|----------0--0--------|
|----------------------|--0------3----------|----------------------|
|---------3----------|------------------|
|---------3----------|------------------|
|--1------0----------|------------------|
|--2------0----------|------------------|
|--2------x----------|------------------|
|--0------3----------|------------------|
|----------------------|---------------------|---------------------|
|----------------------|---------------------|---------------------|
|---9------7--------7--|------------------7--|--9------7--------7--|
|---9------7--------7--|--------5----5----7--|--9------7--------7--|
|---7------5--------4--|--------5----5----5--|--7------5--------4--|
|----------------------|--------3----2-------|---------------------|
|--------3----2--------|----------------------|---------------------|
|--------3----3--------|----------------------|--------3----3-------|
|--------0----2----7---|---9------7--------7--|--------0----2----7--|
|--------0----0----7---|---9------7--------7--|--------0----0----7--|
|--------x----0----5---|---7------5--------4--|--------x----0----5--|
|--------3---------0---|----------------------|--------3---------0--|
|---------------------|---------------------------|---------------------|
|---------------------|---------------------------|---------------------|
|--9------7--------7--|--------------------------*|--9------7--------7--|
|--9------7--------7--|--------------------------*|--9------7--------7--|
|--7------5--------4--|---------------------------|--7------5--------4--|
|--0------------------|----0----0--0--0--0-0-0-0--|--0------------------|
|--------3----2-------|---------------------|
|--------3----3-------|------------------2--|
|--------0----2-------|--9------7--------2--|
|--------0----0-------|--9------7--------2--|
|--------x----0-------|--7------5--------0--|
|--------3---------0--|--0------------------|
|-------------------------|--------------------------|
|----2--2--2--2--2--2--2--|--2--2--2--2--2--2--2--2--|
|----2--2--2--2--2--2--2--|--2--2--2--2--2--2--2--2--|
|----2--2--2--2--2--2--2--|--2--2--2--2--2--2--2--2--|
|----0--0--0--0--0--0--0--|--0--0--0--0--0--0--0--0--|
|-------------------------|--------------------------|
Given The Dog A Bone
e|--------------------------|--------------------------|
B|--------------------------|--------------------------|
G|--2--2--2--2--2--2--2--2--|--2--2--2--2--2--2--2--2--|
D|--x--2--2--x--2--2--x--2--|--2--x--2--2--x--2--2--2--|
A|--3--0--0--5--0--0--3--0--|--0--5--0--0--3--0--0--x--|
E|--------------------------|-----------------------3--|

|-----------------------|-------------------------|
|-----------3-----------|-------------------------|
|-----------2-----------|-------------------------|
|-----------0--------2--|--x--2--2--x--2--x--2----|
|--3--2--0--0--------0--|--3--0--0--5--0--3--0----|
|-----------------------|-------------------------|
|-----------------------|--------------------------|
|-----------3-----------|--------------------------|
|-----------2-----------|--------------------------|
|-----------0-----------|--x--2--2--x--2--x--2-----|
|--3--2--0--0--------0--|--3--0--0--5--0--3--0-----|
|-----------------------|-----------------------0--|
|------------------------|------------------------|------------------------|
|------------------------|------------------------|------------------------|
|-----------2------------|------------------------|------------------------|
|-----------2------------|-----------2------------|-----------2------------|
|--x--2--2--0-------2----|--x--2--2--0-------2----|--x--2--2--0-------2----|
|--3--0--0-------3--0----|--3--0--0-------3--0----|--3--0--0-------3--0----|
|------------------------|------------------------|------------------------|
|------------------------|------------------------|------------------------|
|------------------------|------------------------|------------------------|
|-----------2------------|-----------2------------|-----------2------------|
|--x--2--2--0-------2----|--x--2--2--0-------2----|--x--2--2--0-------2----|
|--3--0--0-------3--0----|--3--0--0-------3--0----|--3--0--0-------3--0----|
|------------------------|------------------------|
|------------------------|------------------------|
|------------------------|------------------------|
|-----------2------------|-----------2------------|
|--x--2--2--0-------2----|--x--2--2--0-------2----|
|--3--0--0-------3--0----|--3--0--0-------3--0----|
Let Me Put My Love Into You

e|---------------------|---------------------|---------------------|
B|---------------------|---------------------|---------------------|
G|---------------------|---------------------|---------------------|
D|------------5--4--5--|------------5--4--5--|------------5--4--5--|
A|------------7--5--7--|------------7--5--7--|------------7--5--7--|
E|---------------------|---------------------|---------------------|
|--------------------|---------------------|---------------------|
|--------------------|---------------------|---------------------|
|-----------------2--|---------------------|---------------------|
|--------4--------2--|------------5--4--5--|------------5--4--5--|
|--------5--------0--|------------7--5--7--|------------7--5--7--|
|--------------------|---------------------|---------------------|
|---------------------|--------------------|---------------------|
|---------------------|--------------------|---------------------|
|---------------------|-----------------2--|---------------------|
|------------5--4--5--|--------4--------2--|------------5--4--5--|
|------------7--5--7--|--------5--------0--|------------7--5--7--|
|---------------------|--------------------|---------------------|
|----------------------|----------------------|----------------------|
|----------------------|----------------------|----------------------|
|----------------------|----------------------|-------------------2--|
|-------------5--4--5--|-------------5--4--5--|---------4---------2--|
|-------------7--5--7--|-------------7--5--7--|---------5---------0--|
|------0---------------|------0---------------|------0---------0-----|
|---------------------|----------------------|----------------------|
|------------8--7--8~-|-------------8--7--8~-|-------------8--7--8~-|
|------------9--7--9~-|-------------9--7--9~-|-------------9--7--9~-|
|---------------------|----------------------|----------------------|
|---------------------|----------------------|----------------------|
|---------------------|------0---------------|------0---------------|
|----------------------|
|---------7---------2--|
|---------7---------2--|
|-------------------2--|
|-------------------0--|
|------0---------0-----|
|------------------------|----------------------------|
|------------------3-----|----------------------3-----|
|------------0-2/4---4-0-|----------------0-2/4---4-0-|
|------------------------|----------------------------|
|------------------------|--2--------2----------------|
|------------------------|--0--0--0--0----------------|
|----------------------------|----------------------------|
|----------------------3-----|----------------------3-----|
|----------------0-2/4---4-0-|----------------0-2/4---4-0-|
|--2--------2----------------|----------------------------|
|--0--0--0--0----------------|--2--------2----------------|
|----------------------------|--0--0--0--0----------------|
|-------------------------|
|-------------------------|
|--2--2-----2----2--2--2--|
|--2--2-----2----2--2--2--|
|--0--0-----0----0--0--0--|
|--------3----------------|

|-----------------------|----------------------|
|--3--------------------|----------------------|
|--2---------2----------|----------------------|
|--0------2--2-------2--|------2----2----2-----|
|--0------0--0----2--2--|------2----2----2-----|
|-----------------0--0--|------0----0----0--0--|
|--2--------------------|----------------------|
|--3--------------------|----------------------|
|--2---------2----------|----------------------|
|--0------2--2-------2--|------2----2----2-----|
|--0------0--0----2--2--|------2----2----2-----|
|-----------------0--0--|------0----0----0--0--|
|--2--------------------|-----------------------|
|--3--------------------|-----------------------|
|--2------2--2----------|-----------------------|
|--0------2--2----------|------2----2--2--2--2--|
|--0------0--0----2--2--|------2----2--2--2--2--|
|-----------------0--0--|------0----0--0--0--0--|
|--2-----------------|----------------------|
|--3--------2--------|-------------8--7--8--|
|--2--------2--------|--0----------9--7--9--|
|--0--------2--------|--2-------------------|
|--0--------0--------|--2-------------------|
|--------------------|--0-------------------|
Back In Black
e|------------------------|------------3-0-------------|
B|---------3-3-3----------|----------------3-0---------|
G|---------2-2-2------2-2-|--2-----------------2b4r2-0-|
D|--2------0-0-0------2-2-|--2-------------------------|
A|--2-----------------0-0-|--0-------------------------|
E|--0---------------------|----------------------------|
|------------------------|---------------------------|
|---------3-3-3----------|---------------------------|
|---------2-2-2------2-2-|--2------------------------|
|--2------0-0-0------2-2-|--2------------------------|
|--2-----------------0-0-|--0------------------------|
|--0---------------------|-------7-4--7-5--7-6--7-7-|

|-----------------------|-----------------------|----3---2--------------|----3---2--------------|
|-----------------------|-----------------------|----3---3--------------|----3---3--------------|
|----2-------4---2---4--|----2-------4---2---4--|----0---2---2---0---2--|----0---2---2---0---2--|
|----2---2---4---2---4--|----2---2---4---2---4--|----0---0---2---0---2--|----0---0---2---0---2--|
|----0---2---2---0---2--|----0---2---2---0---2--|----2-------0---2---0--|----2-------0---2---0--|
|--------0--------------|--------0--------------|----3-----------3------|----3-----------3------|

|-----------------------|-----------------------|--3---3---3---3-3--3----|--2---2---2----------|
|-----------------------|-----------------------|--3---3---3---3-3--3----|--3---3---3----------|
|----2-------4---2---4--|----2-------4---2---4--|--4---4---4---4-4--4----|--2---2---2----------|
|----2---2---4---2---4--|----2---2---4---2---4--|--5---5---5---5-5--5----|--0---0---0----------|
|----0---2---2---0---2--|----0---2---2---0---2--|--5---5---5---5-5--5----|---------------------|
|--------0--------------|--------0--------------|--3---3---3---3-3--3----|---------------------|

|------------------------------|------------------------------|------------------------------|
|------------------------------|------------------------------|------------------------------|
|------------------------------|------------------------------|------------------------------|
|------------------------------|------------------------------|----5-4-2-4----2----2----2----|
|----5-4-2-4----2----2----2----|----5-4-2-4----2----2----2----|--0---------3----5----6----7--|
|--0---------3----5----6----7--|--0---------3----5----6----7--|------------------------------|
|------------------------------|------------------------------|------------------------------|
|------------------------------|------------------------------|------------------------------|
|------------------------------|------------------------------|------------------------------|
|----5-4-2-4----2----2----2----|------------------------------|------------------------------|
|--0---------3----5----6----7--|----5-4-2-4----2----2----2----|----5-4-2-4----2----2----2----|
|------------------------------|--0---------3----5----6----7--|--0---------3----5----6----7--|
You Shook Me All Night Long

e|--3~-------------5--|----3--3-----3--2--------|---------------------|
B|--3~-------------3--|----3-----3--------3-----|--3------------------|
G|--0~-------------0--|-------------------------|--2------------2--2--|
D|--------------------|----------------------0--|--0------------3b-0--|
A|--------------------|-------------------------|---------------------|
E|--------------------|-------------------------|---------------------|
|-----------------------|--3~-------------5--|----3--3-----3--2--------|
|--------------3--------|--3~-------------3--|----3-----3--------3-----|
|--------------2--------|--0~-------------0--|-------------------------|
|--------3/-4-----3b-0--|--------------------|----------------------0--|
|-----------------------|--------------------|-------------------------|
|-----------------------|--------------------|-------------------------|
|--2----------------|------------------|
|--3----------------|------------------|
|--2----------------|------------------|
|--0----------------|------------------|
|-------------------|------------------|
|-------------------|------------------|
|---3-----------------|-----------------------|----------------3--|
|---3--------------1--|----1--3----1----3--3--|----------------3--|
|---0--------------0--|----0--0----0----0--2--|----------------0--|
|---0--------------2--|----2--0----2----0--0--|----------------0--|
|------------------3--|----3-------3----------|-------------------|
|---3-----------------|-------3---------3-----|----------------3--|
|----3------------------|--3-----------------|--------------------2--|
|----3--3----3----3-----|--3--------------1--|-------0----1----3--3--|
|----0--2----0----2-----|--0--------------0--|-------0----0----0--2--|
|----0--0----0----0-----|--0--------------2--|-------0----2----0--0--|
|-----------------------|-----------------3--|----3--2----3----------|
|----3-------3----------|--3-----------------|-------3---------3-----|
|------------2-----3--|----3--------3---------|
|------------3-----3--|----3--3--3--3----3----|
|------------2-----0--|----0--2--2--0----2----|
|------------0-----0--|----0--0--0--0----0----|
|---------------0-----|-----------------------|
|------------------3--|----3--------3---------|

|-----------------------|-------------------------|
|-------3---------------|-------3--------3-----3--|
|--0----0---------------|----0-----------------2--|
|--0----0---------------|-------------------0--0--|
|--------------0--2--3--|----------2--2-----------|
|--3----3---------------|-------------------------|
|-----------------------|-------3---------3----|-----------------------|
|------3----3-----------|-------3---------3----|-------3---------------|
|------2----2-----------|----0-----0------0----|--0----0---------------|
|------0----0-----------|----------------------|--0----0---------------|
|------0----0--0--2--3--|----------2-----------|--------------0--2--3--|
|-----------------------|----------------------|--3----3---------------|
|-------------------------|-----------------------|----------------------|
|-------3--------3-----3--|------3----3-----------|-------3--3-----------|
|----0-----------------2--|------2----2-----------|----0-----0-----------|
|-------------------0--0--|------0----0-----------|----------------------|
|----------2--2-----------|------0----0--0--2--3--|----------2------2----|
|-------------------------|-----------------------|----------------------|
Have A Drink On Me
e|---------------------|------------------|-----------------------------|
B|------8--------------|------------------|------8----------------------|
G|--7/9----------------|------------------|--7/9----9-----7-------------|
D|---------------------|------------------|------------7-----10--7------|
A|---------------------|------------------|-------------------------10--|
E|---------------------|------------------|-----------------------------|
|------------------------|-----------------------------|------------------------|
|--5---------7-----------|------8----------------------|--5---------7-----------|
|--5-6-------7-----------|--7/9----9-----7-------------|--5-6-------7-----------|
|--5---------7-----------|------------7-----10--7------|--5---------7-----------|
|--0---0--0--0--------0--|-------------------------10--|--0---0--0--0--------0--|
|------------------------|-----------------------------|------------------------|
|-----------------------------|------------------------|
|------8----------------------|--5---------7-----------|
|--7/9----9-----7-------------|--5-6-------7-----------|
|------------7-----10--7------|--5---------7-----------|
|-------------------------10--|--0---0--0--0--------0--|
|-----------------------------|------------------------|
|-----------------------------|---------2----------|-----------------------|
|------8----------------------|--2------3----------|--5--------2-----------|
|--7-9----9-----7-------------|--2------2----------|--5--------2-----------|
|------------7-----10--7------|--2------0----------|--5--------2-----------|
|-------------------------10--|--0------0----------|--3--0--3--0--------0--|
|-----------------------------|--------------------|-----------------------|

|-------------------------|-----------------------------|
|---5---------7-----------|------8----------------------|
|---5-6-------7-----------|--7/9----9-----7-------------|
|---5---------7-----------|------------7-----10--7--10--|
|---0---0--0--0--------0--|-----------------------------|
|-------------------------|-----------------------------|
|------------------------|-----------------------|------------------------|
|--5---------7-----------|--5--------2-----------|--5---------7-----------|
|--5-6-------7-----------|--5--------2-----------|--5-6-------7-----------|
|--5---------7-----------|--5--------2-----------|--5---------7-----------|
|--0---0--0--0--------0--|--3--0--3--0--------0--|--0---0--0--0--------0--|
|------------------------|-----------------------|------------------------|
|-----------------------------|------------------------|----------------------|
|------8----------------------|--5---------7-----------|--5--------2----------|
|--7-9----9-----7-------------|--5-6-------7-----------|--5--------2----------|
|------------7-----10--7------|--5---------7-----------|--5--------2----------|
|-------------------------10--|--0---0--0--0--------0--|--3--0--3--0----------|
|-----------------------------|------------------------|----------------------|

|-------------------------|--------------------------|-------------------------|
|-------------------------|--------------------------|-------------------------|
|-------------------------|--------------------------|-------------------------|
|--5----4--5--------------|-----5--5--4--5-----7-----|--5----4--5--------------|
|--0----0--0--0--0--0--0--|--0--0--0--0--0--0--0--0--|--0----0--0--0--0--0--0--|
|-------------------------|--------------------------|-------------------------|
|--------------------------|--------------------------|-------------------------|
|--------------------------|--------------------------|-------------------------|
|--------------------------|-----------------2-2-2----|-------------------------|
|-----5--5--4--5-----7-----|--5--5--4--5-----2-2-2----|----5--5--4--5-----7-----|
|--0--0--0--0--0--0--0--0--|--0--0--0--0--0--0-0-0----|----0--0--0--0--0--0--0--|
|--------------------------|--------------------------|-------------------------|
|-----------------3-3-3----|-------------------------|--------------------------|
|-----------------3-3-3----|-------------------------|-----------------3-3-3----|
|-----------------0-0-0----|-------------------------|-----------------2-2-2----|
|--5--5--4--5-----0-0-0----|----5--5--4--5-----7-----|--5--5--4--5-----0-0-0----|
|--0--0--0--0--0-----------|----0--0--0--0--0--0--0--|--0--0--0--0--0--0-0-0----|
|-----------------3-3-3----|-------------------------|--------------------------|
|-------------------------|--2------2------2----|-----------------------|
|-------------------------|--3------3------3----|-----------------------|
|-------------------------|--2------2------2----|-----------------------|
|----5--5--4--5-----7-----|--0------0------0----|--3-------5------------|
|----0--0--0--0--0--0--0--|---------------------|--3-------5------------|
|-------------------------|---------------------|--1----1--3------------|
Shake A Leg
e|-------------------|------------------|-------------------|
B|-------------------|------------------|-------------------|
G|-------------------|------------------|----------------2--|
D|----------------2--|------------------|----------------2--|
A|----------------2--|------------------|----------------0--|
E|----------------0--|------------------|-------------------|
|--------------------|-------------------|------------------|
|--------------------|-------------------|------------------|
|--------------------|-------------------|------------------|
|-----2--------------|----------------2--|------------------|
|-----2--------------|----------------2--|------------------|
|-----0--------------|----------------0--|------------------|
|--------------------|
|--------------------|
|----------------2---|
|----------------2---|
|----------------0---|
|--------------------|
|--------------------|--------------------|------------------|
|--------------------|--------------------|------------------|
|-----------------2--|--------------------|------------------|
|----2------------2--|----2------------2--|------------------|
|----2------------0--|----2------------2--|------------------|
|----0---------------|----0------------0--|------------------|
|-------------------|--------------------|--------------------|
|-------------------|--------------------|--------------------|
|----------------2--|-----------------2--|--------------------|
|----------------2--|----2------------2--|----2------------2--|
|----------------0--|----2------------0--|----2------------2--|
|-------------------|----0---------------|----0------------0--|
|------------------|---------------------|---------------------|
|------------------|---------------------|---------------------|
|------------------|---------------------|---------------------|
|------------------|--------2-------2----|--------2-------2----|
|------------------|--------2-------2----|--------2-------2----|
|------------------|--------0----3--0----|--------0----3--0----|
|---------------------|------------------|
|---------------------|------------------|
|---------------------|------------------|
|--------2-------2----|------------------|
|--------2-------2----|------------------|
|--------0----3--0----|------------------|
|-------------------|-----------------------|-------------------------|
|-------------------|-----------------------|-------------------------|
|-------------------|-----------------------|-------------------------|
|----------------2--|-------2---------------|----------------------2--|
|----------------2--|-------2-------2--2----|-----4--4-----5--5----2--|
|----------------0--|----3b-0----4----------|--5--------7----------0--|
|-----------------------|-------------------------|----------------------|
|-----------------------|-------------------------|----------------------|
|-----------------------|-------------------------|----------------------|
|-------2---------------|----------------------2--|------2----2----2--2--|
|-------2-------2--2----|-----4--4-----5--5----2--|------2----2----2--2--|
|----3b-0----4----------|--5--------7----------0--|------0----0----0--0--|
|----------------------|-----------------------|--------------------------|
|----------------------|-----------------------|--------------------------|
|----------------------|-----------------------|--------------------------|
|------2----2----2--2--|-------2---------------|-----------------------2--|
|------2----2----2--2--|-------2-------2--2----|-----4--4-----5--5-----2--|
|------0----0----0--0--|----3b-0----4----------|--5--------7--------0--0--|
|-------------------------|----------------------|-----------------------|
|-------------------------|----------------------|-----------------------|
|-------------------------|----------------------|-----------------------|
|----2--2--2--2--2--2--2--|------2----2----2--2--|-------2---------------|
|----2--2--2--2--2--2--2--|------2----2----2--2--|-------2-------2--2----|
|----0--0--0--0--0--0--0--|------0----0----0--0--|----3b-0----4----------|
|-------------------------|------------------------|-------------------------|
|-------------------------|------------------------|-------------------------|
|----------------------2--|----2--2----2--2--2--2--|--2--2--2--2--2----2--2--|
|----------------------2--|----2--2----2--2--2--2--|--2--2--2--2--2----2--2--|
|-----4--4-----5--5----0--|----0--0----0--0--0--0--|--0--0--0--0--0----0--0--|
|--5--------7-------------|------------------------|-------------------------|
|-----------------------|-------------------------|----------------------|
|-----------------------|-------------------------|----------------------|
|-------2---------------|-------------------------|----------------------|
|-------2-------2--2----|-----4--4-----5--5----2--|------2----2----2--2--|
|----3b-0----4----------|--5--------7----------2--|------2----2----2--2--|
|-----------------------|----------------------0--|------0----0----0--0--|
|-----------------------|-----------------------|-------------------------|
|-----------------------|-----------------------|----------------------9--|
|-----------------------|-----------------------|----------------------9--|
|----2--2----2----2--2--|-------2---------------|----------------------9--|
|----2--2----2----2--2--|-------2-------2--2----|-----4--4-----5--5----7--|
|----0--0----0----0--0--|----3b-0----4----------|--5--------7----------7--|
|----------------------|---------------------|----------------------|
|----9--7--------7--9--|--------7------7--9--|----9--7--------7--9--|
|----9--8--------8--9--|--------8------8--9--|----9--8--------8--9--|
|----9--9--------9--9--|--------9------9--9--|----9--9--------9--9--|
|----7--9--------9--7--|--------9------9--7--|----7--9--------9--7--|
|----7--7--------7--7--|--------8------7--7--|----7--7--------7--7--|
|---------------------|-----------------------|---------------------|
|--------7------7--9--|----9--7----7----7--9--|--------7------7--9--|
|--------8------8--9--|----9--8----8----8--9--|--------8------8--9--|
|--------9------9--9--|----9--9----9----9--9--|--------9------9--9--|
|--------9------9--7--|----7--9----9----9--7--|--------9------9--7--|
|--------7------7--7--|----7--7----7----7--7--|--------7------7--7--|
|-----------------------|-----------------------|
|----9--7----9----7--9--|----9--7----9----7-----|
|----9--8----9----8--9--|----9--8----9----8-----|
|----9--9----9----9--9--|----9--9----9----9--2--|
|----7--9----7----9--7--|----7--9----7----9--2--|
|----7--7----7----7--7--|----7--7----7----7--0--|
Rock'n'Roll Ain't Noise Pollution
e|---------------------|-----------------------|----------------------|
B|----------0--2----3--|-------2----2----3-----|-----------0--2----3--|
G|----------1--2----4--|-------2----2----4-----|-----------1--2----4--|
D|---------------------|-----------------------|----2-----------------|
A|---------------------|-------0----0----0-----|----2-----------------|
E|---------------------|--------------------3--|----0-----------------|
|----------------------|----------------------|----------------------|
|------2----2----------|----------0--2----3---|------2----2----3-----|
|------2----2-------9-|----------1--2----4---|------2----2----4-----|
|-------------------9-|----------------------|----------------------|
|------0----0-------7-|----------------------|------0----0----0-----|
|----------------3--0--|----------------------|-------------------3--|
|----------------------|----------------------|
|-----------0--2----3--|------2----2-------0--|
|-----------1--2----4--|------2----2-------1--|
|----2-----------------|-------------------2--|
|----2-----------------|------0----0-------2--|
|----0-----------------|----------------3--0--|

|-----------------------|-----------------------|-----------------------|
|-----------------------|-----------------------|-----------------------|
|--------------------2--|-----------------------|--------------------2--|
|--------------------2--|----2--4----2----4-----|--------------------2--|
|--2----4----5-------0--|----0--0----0----0--0--|--2----4----2-------0--|
|--0----0----0----3-----|-----------------------|--0----0----0----3-----|
|-----------------------|-----------------------|----------------------|
|-----------------------|-----------------------|----------------------|
|-----------------------|--------------------2--|----------------------|
|-------4----2----4-----|--------------------2--|------4----2----4--2--|
|----0--0----0----0--0--|--2----4----5-------0--|------0----0----0--0--|
|-----------------------|--0----0----0----3-----|----------------------|

|-----------------------|------------------------|---------------------|
|-----------------------|------------------------|---------3-----------|
|--------------------2--|----2-------2--2--------|--1------2-----------|
|--------------------2--|----2--4----2--2--4-----|--2------0-----------|
|--2----4----2-------0--|----0--0----0--0--0-----|--2------0--------0--|
|--0----0----0----3-----|---------------------0--|--0------------------|

|---------------------|---------------------|--------------------------|
|--4------------------|---------3--------2--|--2--2--2--2--2--2--2--2--|
|--4------1-----------|--1------2--------2--|--2--2--2--2--2--2--2--2--|
|--4------2-----------|--2------0--------2--|--2--2--2--2--2--2--2--2--|
|--2------2-----------|--2------0--------0--|--0--0--0--0--0--0--0--0--|
|---------0--------0--|--0------------------|--------------------------|
|------------------------|
|--2--2--2----0--2----3--|
|--2--2--2----1--2----4--|
|--2--2--2---------------|
|--0--0--0---------------|
|------------------------|
Notation Used:
x-muted note
/-slide
b-bend
r-let go of bend
b-bend

Enjoy!
Марич Стас rocker@i.ua

Перевод

Hells Bells
Shoot To Thrill
Что Вы делаете деньги на мед
Учитываясобаке кость
Позвольте мне сказать My Love Into You
Вернуться в черном
You Shook Me All Night Long
Выпить на себе
Живей
Ролл Rock N ' Не Шумовое загрязнение
Тюнинг : E, A, D, G , B, E

 Hells Bells
э | ------------------------- | ---------------------- - | ------------------------ |
B | ------------------------- | ---------------------- - | ------------------------ |
G | ----- 9 ----- 7 ---------- 5 - | ---------- 7 ----------- - | ---- 9 ----- 7 ---------- 5 - |
D | -------- 7 ------- 7 -------- | ---- 5 ---------- 7 ------ - | ------- 7 ------- 7 -------- |
| - 0 ---------------- 0 ----- | ------- 0 ---------- 0 - 0 - | ------------------ 0 ----- |
E | ------------------------- | ---------------------- - | ------------------------ |
| ------------------------ | ------------------------ |
| ------------------------ | ------------------------ |
| ---- 9 ----- 7 ---------- 5 - | ---------- 7 ---------- 2 - |
| ------- 7 ------- 7 -------- | ---- 5 ----- 7 ---- 5 - 5 - 2 - |
| ------------------ 0 ----- | ------- 0 ------- 3 - 2 - 0 - |
| ------------------------ | ------------------------ |

| ------------------------ | ------------------------ |
| ------------------------ | ------------------------ |
| ---- 9 ----- 7 ---------- 5 - | ---------- 7 ------------- |
| ------- 7 ------- 7 -------- | ---- 5 ---------- 7 -------- |
| ------------------ 0 ----- | ------- 0 ---------- 0 - 0 - |
| ------------------------ | ------------------------ |
| --------------------- 3 - | ---- 3 - 2 --------------- |
| --------------------- 3 - | ---- 3 - 3 --------------- |
| ---- 9 ----- 7 ---------- 0 - | ---- 0 - 2 --------------- |
| ------- 7 ------- 7 ----- 0 - | ---- 0 - 0 ---- 5 - 5 - 2 ---- |
| ------------------ 0 - х - | ---- х - 0 ---- 3 - 2 - 0 ---- |
| --------------------- 3 - | ---- 3 ------------------ |
| ------------------------ | --------------------- |
| ------------------------ | --------------------- |
| ---- 9 - 7 - 9 ---- 7 - 5 - 7 - | --------------------- |
| ---- 7 - 7 - 7 ---- 5 - 5 - 7 - | ----------- 5 ---- 5 ---- |
| ------------------------ | -------- 0 - 3 ---- 2 ---- |
| ------------------------ | --------------------- |
| ------------------------- | --------------------- |
| ------------------------- | --------------------- |
| ----- 9 - 7 - 9 ---- 7 - 5 - 7 - | --------------------- |
| ----- 7 - 7 - 7 ---- 5 - 5 - 7 - | ----------- 5 ---- 5 ---- |
| - 0 ---------------------- | -------- 0 - 3 ---- 2 ---- |
| ------------------------- | --------------------- |
| ------------------------- | ------------------ 3 ---- | ------------------------- |
| ----- 3 - 3 - 3 ---- 3 - 3 - 3 - | ---- 3 - 3 ---------- 3 ---- | ----- 3 - 3 - 3 ---- 3 - 3 - 3 - |
| ----- 2 - 0 - 2 ---- 2 - 0 - 2 - | ---- 2 - 2 ----- 5 ---- 0 ---- | ----- 2 - 0 - 2 ---- 2 - 0 - 2 - |
| - 0 ---------------------- | ---------- 2 - 5 ---- 0 ---- | - 0 ---------------------- |
| ------------------------- | ---------- 0 - 3 ---- х ---- | ------------------------- |
| ------------------------- | ------------------ 3 ---- | ------------------------- |
| ------------------ 3 ---- | ------------------------ | ----------------------- |
| ---- 3 - 3 ---------- 3 ---- | ------------------------ | ----------------------- |
| ---- 2 - 2 ----- 5 ---- 4 ---- | ------------------------ | ------------- 7 --------- |
| ---------- 2 - 5 ---- 5 ---- | ---- 9 - 7 - 9 ---- 9 - 7 - 9 - | ---- 9 - 9 - 9 - 7 ---- 7 ---- |
| ---------- 0 - 3 ---- 5 ---- | ---- 7 - 7 - 7 ---- 7 - 7 - 7 - | ---- 7 - 7 - 7 - 5 ---- 7 ---- |
| ------------------ 3 ---- | ------------------------ | ------------------ 5 ---- |
| ------------------------ | ------------- 3 ---- 3 ---- |
| ------------------------ | ------------- 3 ---- 3 ---- |
| ------------------------ | ------------- 0 ---- 0 ---- |
| ---- 9 - 7 - 9 ---- 9 - 7 - 9 - | ---- 9 - 9 - 9 - 0 ---- 0 ---- |
| ---- 7 - 7 - 7 ---- 7 - 7 - 7 - | ---- 7 - 7 - 7 - х ---- х ---- |
| ------------------------ | ------------- 3 ---- 3 ---- |
 Shoot To Thrill

э | ---------------------- | ------------------ | ------ ------------ |
B | ---------------------- | ------------------ | ------ ------------ |
G | ------------------- 2 - | ------------------ | ------ ------------ |
D | ---------- 2 - 2 ----- 2 - | ------------------ | ------ ------------ |
| ---------- 0 - 3 - 4 - 0 - | ------------------ | ------ ------------ |
E | ---------------------- | ------------------ | ------ ------------ |
| ------------------ | ---------------------- | - 3 ---- ---- 2 -------- 3 ----- |
| ------------------ | ---------------------- | - 3 ---- ---- 3 -------- 3 ----- |
| ------------------ | ------------------- 2 - | - 0 ---- ---- 2 -------- 0 ----- |
| ------------------ | ---------- 2 - 2 ----- 2 - | - 0 ---- ---- 0 -------- 0 ----- |
| ------------------ | ---------- 0 - 3 - 4 - 0 - | - х - 0 - - 0 - 0 - 0 - 0 - х - 0 - |
| ------------------ | ---------------------- | - 3 ---- ------------- 3 ----- |
| ----- 2 -------------------- | - 3 -------- 2 -------- 3 - ---- | ----- 2 -------------------- |
| ----- 3 -------------------- | - 3 -------- 3 -------- 3 - ---- | ----- 3 -------------------- |
| ----- 2 -------- 2 ----------- | - 0 -------- 2 -------- 0 - ---- | ----- 2 -------- 2 ----------- |
| ----- 0 -------- 0 ----- 2 - 2 - | - 0 -------- 0 -------- 0 - ---- | ----- 0 -------- 0 ----- 2 - 2 - |
| - 0 - 0 - 0 - 0 ----- 4 - 0 - 0 - | - х - 0 - 0 - 0 - 0 - 0 - х - -0 - | - 0 - 0 - 0 - 0 ----- 4 - 0 - 0 - |
| -------------------------- | - 3 ----------------- 3 - ---- | -------------------------- |

| ---------- 3 ------------ | ------------------- | ----- ----- 3 ------------ |
| - 5 ------- 3 ------- 5 ---- | ---------------- 5 - | - 5 - ----- 3 ------- 5 ---- |
| - 5 ------- 4 ------- 5 ---- | ---------------- 5 - | - 5 - ----- 4 ------- 5 ---- |
| - 5 ---- 5 - 5 ------- 5 ---- | ---------------- 5 - | - 5 - ----- 5 ---- 5 - 5 ---- |
| - 3 ---- 3 - 5 ---- 5 - 3 ---- | ---------------- 3 - | - 3 - - 5 - 5 ---- 3 - 3 ---- |
| ---------- 3 ---- 3 ------- | ------------------- | ----- - 3 - 3 ------------ |
| ---------------------- | ---------- 5 ----------- | --- ---------------- |
| ---- 5 - 5 ------ 5 - 5 ---- | - 7 ------- 5 ------ 7 ---- | --- ---------------- |
| ---- 5 - 5 ------ 5 - 5 ---- | - 7 ------- 6 ------ 7 ---- | --- ---------------- |
| ---- 5 - 5 ------ 5 - 5 ---- | - 7 ------- 7 ------ 7 ---- | --- ---------------- |
| ---- 3 - 3 ------ 3 - 3 ---- | - 5 ---- 7 - 7 ------ 5 ---- | --- ---------------- |
| ---------------------- | ------- 5 - 5 ----------- | --- ------------- 0 - |
| ------------------------- | ----------------------- --- |
| ---- 8 - 8 ----- 8 - 8 ----- 8 - | - 8 ----- 8 - 8 ----- 8 - 8 - --- |
| ---- 7 - 7 ----- 7 - 7 ----- 7 - | - 7 ----- 7 - 7 ----- 7 - 7 - --- |
| ---- 6 - 6 ----- 6 - 6 ----- 6 - | - 6 ----- 6 - 6 ----- 6 - 6 - --- |
| ---- 7 - 7 ----- 7 - 7 ----- 7 - | - 7 ----- 7 - 7 ----- 7 - 7 - --- |
| ---------- 0 -------- 0 ----- | ----- 0 -------- 0 -------- 0 - |
| --------------------- 3 - | ------ 3 ---- 3 - 3 - 3 - 2 - |
| --------------------- 3 - | ------ 3 ---- 3 - 3 - 3 - 3 - |
| - 2 ---- 2 ---- 2 - 2 ----- 0 - | ------ 0 ---- 0 - 0 - 0 - 2 - |
| - 2 ---- 2 ---- 2 - 2 ----- 0 - | ------ 0 ---- 0 - 0 - 0 - 0 - |
| - 0 ---- 0 ---- 0 - 0 ----- 2 - | ------ 2 ---- 2 - 2 - 2 - 0 - |
| ------------------ 0 - 3 - | ------ 3 ---- 3 - 3 - 3 ----- |
 Что Вы делаете деньги на мед

э | --------- 3 ---------- | ---- 2 - 2 -------------- | ---- ----- 3 ---------- |
B | --------- 3 ---------- | ---- 3 - 3 - 2 - 2 -------- | ---- ----- 3 ---------- |
G | - 1 ------ 0 ---------- | ---- 2 - 2 - 2 - 2 -------- | - 1 - ----- 0 ---------- |
D | - 2 ------ 0 ---------- | ---- 0 - 0 - 2 - 2 -------- | - 2 - ----- 0 ---------- |
| - 2 ------ х ---------- | ---------- 0 - 0 -------- | - 2 - ----- х ---------- |
E | - 0 ------ 3 ---------- | ---------------------- | - 0 - ----- 3 ---------- |
| ---- 2 - 2 -------------- | --------- 3 ---------- | ---- 2 - 2 -------------- |
| ---- 3 - 3 - 2 - 2 -------- | --------- 3 ---------- | ---- 3 - 3 - 2 - 2 -------- |
| ---- 2 - 2 - 2 - 2 -------- | - 1 ------ 0 ---------- | ---- 2 - 2 - 2 - 2 -------- |
| ---- 0 - 0 - 2 - 2 -------- | - 2 ------ 0 ---------- | ---- 0 - 0 - 2 - 2 -------- |
| ---------- 0 - 0 -------- | - 2 ------ х ---------- | ----- ----- 0 - 0 -------- |
| ---------------------- | - 0 ------ 3 ---------- | ----- ----------------- |
| --------- 3 ---------- | ------------------ |
| --------- 3 ---------- | ------------------ |
| - 1 ------ 0 ---------- | ------------------ |
| - 2 ------ 0 ---------- | ------------------ |
| - 2 ------ х ---------- | ------------------ |
| - 0 ------ 3 ---------- | ------------------ |
| ---------------------- | --------------------- | ---- ----------------- |
| ---------------------- | --------------------- | ---- ----------------- |
| --- 9 ------ 7 -------- 7 - | ------------------ 7 - | - 9 - ----- 7 -------- 7 - |
| --- 9 ------ 7 -------- 7 - | -------- 5 ---- 5 ---- 7 - | - 9 - ----- 7 -------- 7 - |
| --- 7 ------ 5 -------- 4 - | -------- 5 ---- 5 ---- 5 - | - 7 - ----- 5 -------- 4 - |
| ---------------------- | -------- 3 ---- 2 ------- | ---- ----------------- |
| -------- 3 ---- 2 -------- | ---------------------- | --- ------------------ |
| -------- 3 ---- 3 -------- | ---------------------- | --- ----- 3 ---- 3 ------- |
| -------- 0 ---- 2 ---- 7 --- | --- 9 ------ 7 -------- 7 - | --- ----- 0 ---- 2 ---- 7 - |
| -------- 0 ---- 0 ---- 7 --- | --- 9 ------ 7 -------- 7 - | --- ----- 0 ---- 0 ---- 7 - |
| -------- х ---- 0 ---- 5 --- | --- 7 ------ 5 -------- 4 - | --- ----- х ---- 0 ---- 5 - |
| -------- 3 --------- 0 --- | ---------------------- | --- ----- 3 --------- 0 - |
| --------------------- | --------------------------- | --------------------- |
| --------------------- | --------------------------- | --------------------- |
| - 9 ------ 7 -------- 7 - | -------------------------- * | - 9 ------ 7 -------- 7 - |
| - 9 ------ 7 -------- 7 - | -------------------------- * | - 9 ------ 7 -------- 7 - |
| - 7 ------ 5 -------- 4 - | --------------------------- | - 7 ------ 5 -------- 4 - |
| - 0 ------------------ | ---- 0 ---- 0 - 0 - 0 - 0-0-0-0 - | - 0 ------------------ |
| -------- 3 ---- 2 ------- | --------------------- |
| -------- 3 ---- 3 ------- | ------------------ 2 - |
| -------- 0 ---- 2 ------- | - 9 ------ 7 -------- 2 - |
| -------- 0 ---- 0 ------- | - 9 ------ 7 -------- 2 - |
| -------- х ---- 0 ------- | - 7 ------ 5 -------- 0 - |
| -------- 3 --------- 0 - | - 0 ------------------ |
| ------------------------- | ----------------------- --- |
| ---- 2 - 2 - 2 - 2 - 2 - 2 - 2 - | - 2 - 2 - 2 - 2 - 2 - 2 - 2 - 2 - |
| ---- 2 - 2 - 2 - 2 - 2 - 2 - 2 - | - 2 - 2 - 2 - 2 - 2 - 2 - 2 - 2 - |
| ---- 2 - 2 - 2 - 2 - 2 - 2 - 2 - | - 2 - 2 - 2 - 2 - 2 - 2 - 2 - 2 - |
| ---- 0 - 0 - 0 - 0 - 0 - 0 - 0 - | - 0 - 0 - 0 - 0 - 0 - 0 - 0 - 0 - |
| ------------------------- | ----------------------- --- |
 Учитываясобаке кость
э | -------------------------- | --------------------- ----- |
B | -------------------------- | --------------------- ----- |
G | - 2 - 2 - 2 - 2 - 2 - 2 - 2 - 2 - | - 2 - 2 - 2 - 2 - 2 - 2 - 2 - 2 - |
D | - х - 2 - 2 - х - 2 - 2 - х - 2 - | - 2 - х - 2 - 2 - х - 2 - 2 - 2 - |
| - 3 - 0 - 0 - 5 - 0 - 0 - 3 - 0 - | - 0 - 5 - 0 - 0 - 3 - 0 - 0 - х - |
E | -------------------------- | --------------------- - 3 - |

| ----------------------- | ------------------------- |
| ----------- 3 ----------- | ------------------------- |
| ----------- 2 ----------- | ------------------------- |
| ----------- 0 -------- 2 - | - х - 2 - 2 - х - 2 - х - 2 ---- |
| - 3 - 2 - 0 - 0 -------- 0 - | - 3 - 0 - 0 - 5 - 0 - 3 - 0 ---- |
| ----------------------- | ------------------------- |
| ----------------------- | ------------------------- - |
| ----------- 3 ----------- | ------------------------- - |
| ----------- 2 ----------- | ------------------------- - |
| ----------- 0 ----------- | - х - 2 - 2 - х - 2 - х - 2 ---- - |
| - 3 - 2 - 0 - 0 -------- 0 - | - 3 - 0 - 0 - 5 - 0 - 3 - 0 ---- - |
| ----------------------- | ----------------------- 0 - - |
| ------------------------ | ------------------------ | ------------------------ |
| ------------------------ | ------------------------ | ------------------------ |
| ----------- 2 ------------ | ------------------------ | ------------------------ |
| ----------- 2 ------------ | ----------- 2 ------------ | ----------- 2 ------------ |
| - х - 2 - 2 - 0 ------- 2 ---- | - х - 2 - 2 - 0 ------- 2 ---- | - х - 2 - 2 - 0 ------- 2 ---- |
| - 3 - 0 - 0 ------- 3 - 0 ---- | - 3 - 0 - 0 ------- 3 - 0 ---- | - 3 - 0 - 0 ------- 3 - 0 ---- |
| ------------------------ | ------------------------ | ------------------------ |
| ------------------------ | ------------------------ | ------------------------ |
| ------------------------ | ------------------------ | ------------------------ |
| ----------- 2 ------------ | ----------- 2 ------------ | ----------- 2 ------------ |
| - х - 2 - 2 - 0 ------- 2 ---- | - х - 2 - 2 - 0 ------- 2 ---- | - х - 2 - 2 - 0 ------- 2 ---- |
| - 3 - 0 - 0 ------- 3 - 0 ---- | - 3 - 0 - 0 ------- 3 - 0 ---- | - 3 - 0 - 0 ------- 3 - 0 ---- |
| ------------------------ | ------------------------ |
| ------------------------ | ------------------------ |
| ------------------------ | ------------------------ |
| ----------- 2 ------------ | ----------- 2 ------------ |
| - х - 2 - 2 - 0 ------- 2 ---- | - х - 2 - 2 - 0 ------- 2 ---- |
| - 3 - 0 - 0 ------- 3 - 0 ---- | - 3 - 0 - 0 ------- 3 - 0 ---- |
 Позвольте мне сказать My Love Into You

э | --------------------- | --------------------- | ---- ----------------- |
B | --------------------- | --------------------- | ---- ----------------- |
G | --------------------- | --------------------- | ---- ----------------- |
D | ------------ 5 - 4 - 5 - | ------------ 5 - 4 - 5 - | ---- -------- 5 - 4 - 5 - |
| ------------ 7 - 5 - 7 - | ------------ 7 - 5 - 7 - | ---- -------- 7 - 5 - 7 - |
E | --------------------- | --------------------- | ---- ----------------- |
| -------------------- | --------------------- | ------ --------------- |
| -------------------- | --------------------- | ------ --------------- |
| ----------------- 2 - | --------------------- | ------ --------------- |
| -------- 4 -------- 2 - | ------------ 5 - 4 - 5 - | ------ ------ 5 - 4 - 5 - |
| -------- 5 -------- 0 - | ------------ 7 - 5 - 7 - | ------ ------ 7 - 5 - 7 - |
| -------------------- | --------------------- | ------ --------------- |
| --------------------- | -------------------- | ------ --------------- |
| --------------------- | -------------------- | ------ --------------- |
| --------------------- | ----------------- 2 - | ------ --------------- |
| ------------ 5 - 4 - 5 - | -------- 4 -------- 2 - | ------ ------ 5 - 4 - 5 - |
| ------------ 7 - 5 - 7 - | -------- 5 -------- 0 - | ------ ------ 7 - 5 - 7 - |
| --------------------- | -------------------- | ------ --------------- |
| ---------------------- | ---------------------- | --- ------------------- |
| ---------------------- | ---------------------- | --- ------------------- |
| ---------------------- | ---------------------- | --- ---------------- 2 - |
| ------------- 5 - 4 - 5 - | ------------- 5 - 4 - 5 - | --- ------ 4 --------- 2 - |
| ------------- 7 - 5 - 7 - | ------------- 7 - 5 - 7 - | --- ------ 5 --------- 0 - |
| ------ 0 --------------- | ------ 0 --------------- | --- --- 0 --------- 0 ----- |
| --------------------- | ---------------------- | ---- ------------------ |
| ------------ 8 - 7 - 8 ~ - | ------------- 8 - 7 - 8 ~ - | ---- --------- 8 - 7 - 8 ~ - |
| ------------ 9 - 7 - 9 ~ - | ------------- 9 - 7 - 9 ~ - | ---- --------- 9 - 7 - 9 ~ - |
| --------------------- | ---------------------- | ---- ------------------ |
| --------------------- | ---------------------- | ---- ------------------ |
| --------------------- | ------ 0 --------------- | ---- - 0 --------------- |
| ---------------------- |
| --------- 7 --------- 2 - |
| --------- 7 --------- 2 - |
| ------------------- 2 - |
| ------------------- 0 - |
| ------ 0 --------- 0 ----- |
| ------------------------ | ------------------------ ---- |
| ------------------ 3 ----- | ---------------------- 3 - ---- |
| ------------0-2/4---4-0- | ----------------0-2/4--- 4-0 - |
| ------------------------ | ------------------------ ---- |
| ------------------------ | - 2 -------- 2 ------------ ---- |
| ------------------------ | - 0 - 0 - 0 - 0 ------------ ---- |
| ---------------------------- | -------------------- -------- |
| ---------------------- 3 ----- | -------------------- - 3 ----- |
| ----------------0-2/4---4-0- | ---------------- 0-2 / 4 --- 4-0 - |
| - 2 -------- 2 ---------------- | -------------------- -------- |
| - 0 - 0 - 0 - 0 ---------------- | - 2 -------- 2 -------- -------- |
| ---------------------------- | - 0 - 0 - 0 - 0 -------- -------- |
| ------------------------- |
| ------------------------- |
| - 2 - 2 ----- 2 ---- 2 - 2 - 2 - |
| - 2 - 2 ----- 2 ---- 2 - 2 - 2 - |
| - 0 - 0 ----- 0 ---- 0 - 0 - 0 - |
| -------- 3 ---------------- |

| ----------------------- | ---------------------- |
| - 3 -------------------- | ---------------------- |
| - 2 --------- 2 ---------- | ---------------------- |
| - 0 ------ 2 - 2 ------- 2 - | ------ 2 ---- 2 ---- 2 ----- |
| - 0 ------ 0 - 0 ---- 2 - 2 - | ------ 2 ---- 2 ---- 2 ----- |
| ----------------- 0 - 0 - | ------ 0 ---- 0 ---- 0 - 0 - |
| - 2 -------------------- | ---------------------- |
| - 3 -------------------- | ---------------------- |
| - 2 --------- 2 ---------- | ---------------------- |
| - 0 ------ 2 - 2 ------- 2 - | ------ 2 ---- 2 ---- 2 ----- |
| - 0 ------ 0 - 0 ---- 2 - 2 - | ------ 2 ---- 2 ---- 2 ----- |
| ----------------- 0 - 0 - | ------ 0 ---- 0 ---- 0 - 0 - |
| - 2 -------------------- | ----------------------- |
| - 3 -------------------- | ----------------------- |
| - 2 ------ 2 - 2 ---------- | ----------------------- |
| - 0 ------ 2 - 2 ---------- | ------ 2 ---- 2 - 2 - 2 - 2 - |
| - 0 ------ 0 - 0 ---- 2 - 2 - | ------ 2 ---- 2 - 2 - 2 - 2 - |
| ----------------- 0 - 0 - | ------ 0 ---- 0 - 0 - 0 - 0 - |
| - 2 ----------------- | ---------------------- |
| - 3 -------- 2 -------- | ------------- 8 - 7 - 8 - |
| - 2 -------- 2 -------- | - 0 ---------- 9 - 7 - 9 - |
| - 0 -------- 2 -------- | - 2 ------------------- |
| - 0 -------- 0 -------- | - 2 ------------------- |
| -------------------- | - 0 ------------------- |
 Вернуться в черном
э | ------------------------ | ------------ 3-0 -------- ----- |
B | --------- 3-3-3 ---------- | ---------------- 3-0 ---- ----- |
G | --------- 2-2-2 ------ 2-2 - | - 2 ----------------- 2b4r2 - 0 - |
D | - 2 ------ 0-0-0 ------ 2-2 - | - 2 -------------------- ----- |
| - 2 ----------------- 0-0 - | - 0 -------------------- ----- |
E | - 0 --------------------- | ----------------------- ----- |
| ------------------------ | ------------------------ --- |
| --------- 3-3-3 ---------- | ------------------------ --- |
| --------- 2-2-2 ------ 2-2 - | - 2 --------------------- --- |
| - 2 ------ 0-0-0 ------ 2-2 - | - 2 --------------------- --- |
| - 2 ----------------- 0-0 - | - 0 --------------------- --- |
| - 0 --------------------- | ------- 7-4 - 7-5 - 7-6 - 7 - 7 - |

| ----------------------- | ----------------------- | - --- 3 --- 2 -------------- | ---- 3 --- 2 -------------- |
| ----------------------- | ----------------------- | - --- 3 --- 3 -------------- | ---- 3 --- 3 -------------- |
| ---- 2 ------- 4 --- 2 --- 4 - | ---- 2 ------- 4 --- 2 --- 4 - | - --- 0 --- 2 --- 2 --- 0 --- 2 - | ---- 0 --- 2 --- 2 --- 0 --- 2 - |
| ---- 2 --- 2 --- 4 --- 2 --- 4 - | ---- 2 --- 2 --- 4 --- 2 --- 4 - | - --- 0 --- 0 --- 2 --- 0 --- 2 - | ---- 0 --- 0 --- 2 --- 0 --- 2 - |
| ---- 0 --- 2 --- 2 --- 0 --- 2 - | ---- 0 --- 2 --- 2 --- 0 --- 2 - | - --- 2 ------- 0 --- 2 --- 0 - | ---- 2 ------- 0 --- 2 --- 0 - |
| -------- 0 -------------- | -------- 0 -------------- | - --- 3 ----------- 3 ------ | ---- 3 ----------- 3 ------ |

| ----------------------- | ----------------------- | - -3 --- 3 --- 3 --- 3-3 - 3 ---- | - 2 --- 2 --- 2 ---------- |
| ----------------------- | ----------------------- | - -3 --- 3 --- 3 --- 3-3 - 3 ---- | - 3 --- 3 --- 3 ---------- |
| ---- 2 ------- 4 --- 2 --- 4 - | ---- 2 ------- 4 --- 2 --- 4 - | - -4 --- 4 --- 4 --- 4-4 - 4 ---- | - 2 --- 2 --- 2 ---------- |
| ---- 2 --- 2 --- 4 --- 2 --- 4 - | ---- 2 --- 2 --- 4 --- 2 --- 4 - | - -5 --- 5 --- 5 --- 5-5 - 5 ---- | - 0 --- 0 --- 0 ---------- |
| ---- 0 --- 2 --- 2 --- 0 --- 2 - | ---- 0 --- 2 --- 2 --- 0 --- 2 - | - -5 --- 5 --- 5 --- 5-5 - 5 ---- | --------------------- |
| -------- 0 -------------- | -------- 0 -------------- | - -3 --- 3 --- 3 --- 3-3 - 3 ---- | --------------------- |

| ------------------------------ | ------------------ ------------ | ------------------------------ |
| ------------------------------ | ------------------ ------------ | ------------------------------ |
| ------------------------------ | ------------------ ------------ | ------------------------------ |
| ------------------------------ | ------------------ ------------ | ---- 5-4-2-4 ---- 2 ---- 2 ---- 2 ---- |
| ---- 5-4-2-4 ---- 2 ---- 2 ---- 2 ---- | ---- 5-4-2-4 ---- 2 - - 2 ---- 2 ---- | - 0 --------- 3 ---- 5 ---- 6 ---- 7 - |
| - 0 --------- 3 ---- 5 ---- 6 ---- 7 - | - 0 --------- 3 ---- 5 ---- 6 ---- 7 - | ------------------------------ |
| ------------------------------ | ------------------ ------------ | ------------------------------ |
| ------------------------------ | ------------------ ------------ | ------------------------------ |
| ------------------------------ | ------------------ ------------ | ------------------------------ |
| ---- 5-4-2-4 ---- 2 ---- 2 ---- 2 ---- | ------------------ ------------ | ------------------------------ |
| - 0 --------- 3 ---- 5 ---- 6 ---- 7 - | ---- 5-4-2-4 ---- 2 - - 2 ---- 2 ---- | ---- 5-4-2-4 ---- 2 ---- 2 ---- 2 ---- |
| ------------------------------ | - 0 --------- 3 ---- 5 ---- 6 ---- 7 - | - 0 --------- 3 ---- 5 ---- 6 ---- 7 - |
 You Shook Me All Night Long

е | - 3 ~ ------------- 5 - | ---- 3 - 3 ----- 3 - 2 -------- | - -------------------- |
B | - 3 ~ ------------- 3 - | ---- 3 ----- 3 -------- 3 ----- | - -3 ------------------ |
G | - 0 ~ ------------- 0 - | ------------------------- | - -2 ------------ 2 - 2 - |
D | -------------------- | ---------------------- 0 - | - - 0 ------------ 3b - 0 - |
| -------------------- | ------------------------- | - -------------------- |
E | -------------------- | ------------------------- | - -------------------- |
| ----------------------- | - 3 ~ ------------- 5 - | ---- 3 - 3 ----- 3 - 2 -------- |
| -------------- 3 -------- | - 3 ~ ------------- 3 - | ---- 3 ----- 3 -------- 3 ----- |
| -------------- 2 -------- | - 0 ~ ------------- 0 - | ---- --------------------- |
| --------3/-4-----3b-0-- | -------------------- | ----- ----------------- 0 - |
| ----------------------- | -------------------- | ---- --------------------- |
| ----------------------- | -------------------- | ---- --------------------- |
| - 2 ---------------- | ------------------ |
| - 3 ---------------- | ------------------ |
| - 2 ---------------- | ------------------ |
| - 0 ---------------- | ------------------ |
| ------------------- | ------------------ |
| ------------------- | ------------------ |
| --- 3 ----------------- | ----------------------- | --- ------------- 3 - |
| --- 3 -------------- 1 - | ---- 1 - 3 ---- 1 ---- 3 - 3 - | --- ------------- 3 - |
| --- 0 -------------- 0 - | ---- 0 - 0 ---- 0 ---- 0 - 2 - | --- ------------- 0 - |
| --- 0 -------------- 2 - | ---- 2 - 0 ---- 2 ---- 0 - 0 - | --- ------------- 0 - |
| ------------------ 3 - | ---- 3 ------- 3 ---------- | --- ---------------- |
| --- 3 ----------------- | ------- 3 --------- 3 ----- | --- ------------- 3 - |
| ---- 3 ------------------ | - 3 ----------------- | ---- ---------------- 2 - |
| ---- 3 - 3 ---- 3 ---- 3 ----- | - 3 -------------- 1 - | ---- --- 0 ---- 1 ---- 3 - 3 - |
| ---- 0 - 2 ---- 0 ---- 2 ----- | - 0 -------------- 0 - | ---- --- 0 ---- 0 ---- 0 - 2 - |
| ---- 0 - 0 ---- 0 ---- 0 ----- | - 0 -------------- 2 - | ---- --- 0 ---- 2 ---- 0 - 0 - |
| ----------------------- | ----------------- 3 - | ---- 3 - 2 ---- 3 ---------- |
| ---- 3 ------- 3 ---------- | - 3 ----------------- | ---- --- 3 --------- 3 ----- |
| ------------ 2 ----- 3 - | ---- 3 -------- 3 --------- |
| ------------ 3 ----- 3 - | ---- 3 - 3 - 3 - 3 ---- 3 ---- |
| ------------ 2 ----- 0 - | ---- 0 - 2 - 2 - 0 ---- 2 ---- |
| ------------ 0 ----- 0 - | ---- 0 - 0 - 0 - 0 ---- 0 ---- |
| --------------- 0 ----- | ----------------------- |
| ------------------ 3 - | ---- 3 -------- 3 --------- |

| ----------------------- | ------------------------- |
| ------- 3 --------------- | ------- 3 -------- 3 ----- 3 - |
| - 0 ---- 0 --------------- | ---- 0 ----------------- 2 - |
| - 0 ---- 0 --------------- | ------------------- 0 - 0 - |
| -------------- 0 - 2 - 3 - | ---------- 2 - 2 ----------- |
| - 3 ---- 3 --------------- | ------------------------- |
| ----------------------- | ------- 3 --------- 3 ---- | - --------------------- |
| ------ 3 ---- 3 ----------- | ------- 3 --------- 3 ---- | - ----- 3 --------------- |
| ------ 2 ---- 2 ----------- | ---- 0 ----- 0 ------ 0 ---- | - 0 ---- 0 --------------- |
| ------ 0 ---- 0 ----------- | ---------------------- | - 0 ---- 0 --------------- |
| ------ 0 ---- 0 - 0 - 2 - 3 - | ---------- 2 ----------- | - ------------ 0 - 2 - 3 - |
| ----------------------- | ---------------------- | - 3 ---- 3 --------------- |
| ------------------------- | ----------------------- | ---------------------- |
| ------- 3 -------- 3 ----- 3 - | ------ 3 ---- 3 ----------- | ------- 3 - 3 ----------- |
| ---- 0 ----------------- 2 - | ------ 2 ---- 2 ----------- | ---- 0 ----- 0 ----------- |
| ------------------- 0 - 0 - | ------ 0 ---- 0 ----------- | ---------------------- |
| ---------- 2 - 2 ----------- | ------ 0 ---- 0 - 0 - 2 - 3 - | ---------- 2 ------ 2 ---- |
| ------------------------- | ----------------------- | ---------------------- |
 Выпить на себе
э | --------------------- | ------------------ | ------- ---------------------- |
B | ------ 8 -------------- | ------------------ | ------ 8 ---------------------- |
G | --7/9---------------- | ------------------ | --7/9-- - 9 ----- 7 ------------- |
D | --------------------- | ------------------ | ------- ----- 7 ----- 10 - 7 ------ |
| --------------------- | ------------------ | ------- ------------------ 10 - |
E | --------------------- | ------------------ | ------- ---------------------- |
| ------------------------ | ------------------------ ----- | ------------------------ |
| - 5 --------- 7 ----------- | ------ 8 ----------------- ----- | - 5 --------- 7 ----------- |
| - 5-6 ------- 7 ----------- | --7/9----9-----7-------- ----- | - 5-6 ------- 7 ----------- |
| - 5 --------- 7 ----------- | ------------ 7 ----- 10 - 7 - ---- | - 5 --------- 7 ----------- |
| - 0 --- 0 - 0 - 0 -------- 0 - | ------------------------ -10 - | - 0 --- 0 - 0 - 0 -------- 0 - |
| ------------------------ | ------------------------ ----- | ------------------------ |
| ----------------------------- | ------------------- ----- |
| ------ 8 ---------------------- | - 5 --------- 7 ------ ----- |
| --7/9----9-----7------------- | - 5-6 ------- 7 ------ ----- |
| ------------ 7 ----- 10 - 7 ------ | - 5 --------- 7 ------- ---- |
| ------------------------- 10 - | - 0 --- 0 - 0 - 0 ------- -0 - |
| ----------------------------- | ------------------- ----- |
| ----------------------------- | --------- 2 --------- - | ----------------------- |
| ------ 8 ---------------------- | - 2 ------ 3 --------- - | - 5 -------- 2 ----------- |
| - 7-9 ---- 9 ----- 7 ------------- | - 2 ------ 2 --------- - | - 5 -------- 2 ----------- |
| ------------ 7 ----- 10 - 7 ------ | - 2 ------ 0 ---------- | - 5 -------- 2 ----------- |
| ------------------------- 10 - | - 0 ------ 0 ---------- | - 3 - 0 - 3 - 0 -------- 0 - |
| ----------------------------- | ------------------- - | ----------------------- |

| ------------------------- | ----------------------- ------ |
| --- 5 --------- 7 ----------- | ------ 8 ---------------- ------ |
| --- 5-6 ------- 7 ----------- | --7/9----9-----7------- ------ |
| --- 5 --------- 7 ----------- | ------------ 7 ----- 10 - 7 - -10 - |
| --- 0 --- 0 - 0 - 0 -------- 0 - | ----------------------- ------ |
| ------------------------- | ----------------------- ------ |
| ------------------------ | ----------------------- | ------------------------ |
| - 5 --------- 7 ----------- | - 5 -------- 2 ----------- | - 5 --------- 7 ----------- |
| - 5-6 ------- 7 ----------- | - 5 -------- 2 ----------- | - 5-6 ------- 7 ----------- |
| - 5 --------- 7 ----------- | - 5 -------- 2 ----------- | - 5 --------- 7 ----------- |
| - 0 --- 0 - 0 - 0 -------- 0 - | - 3 - 0 - 3 - 0 -------- 0 - | - 0 --- 0 - 0 - 0 -------- 0 - |
| ------------------------ | ----------------------- | ------------------------ |
| ----------------------------- | ------------------- ----- | ---------------------- |
| ------ 8 ---------------------- | - 5 --------- 7 ------ ----- | - 5 -------- 2 ---------- |
| - 7-9 ---- 9 ----- 7 ------------- | - 5-6 ------- 7 ------ ----- | - 5 -------- 2 ---------- |
| ------------ 7 ----- 10 - 7 ------ | - 5 --------- 7 ------- ---- | - 5 -------- 2 ---------- |
| ------------------------- 10 - | - 0 --- 0 - 0 - 0 ------- -0 - | - 3 - 0 - 3 - 0 ---------- |
| ----------------------------- | ------------------- ----- | ---------------------- |

| ------------------------- | ----------------------- --- | ------------------------- |
| ------------------------- | ----------------------- --- | ------------------------- |
| ------------------------- | ----------------------- --- | ------------------------- |
| - 5 ---- 4 - 5 -------------- | ----- 5 - 5 - 4 - 5 ----- 7 - --- | - 5 ---- 4 - 5 -------------- |
| - 0 ---- 0 - 0 - 0 - 0 - 0 - 0 - | - 0 - 0 - 0 - 0 - 0 - 0 - 0 - 0 - | - 0 ---- 0 - 0 - 0 - 0 - 0 - 0 - |
| ------------------------- | ----------------------- --- | ------------------------- |
| -------------------------- | ---------------------- ---- | ------------------------- |
| -------------------------- | ---------------------- ---- | ------------------------- |
| -------------------------- | ----------------- 2-2-2 ---- | ------------------------- |
| ----- 5 - 5 - 4 - 5 ----- 7 ----- | - 5 - 5 - 4 - 5 ----- 2-2-2 ---- | ---- 5 - 5 - 4 - 5 ----- 7 ----- |
| - 0 - 0 - 0 - 0 - 0 - 0 - 0 - 0 - | - 0 - 0 - 0 - 0 - 0 - 0-0-0 ---- | ---- 0 - 0 - 0 - 0 - 0 - 0 - 0 - |
| -------------------------- | ---------------------- ---- | ------------------------- |
| ----------------- 3-3-3 ---- | ---------------------- --- | -------------------------- |
| ----------------- 3-3-3 ---- | ---------------------- --- | ----------------- 3-3-3 ---- |
| ----------------- 0-0-0 ---- | ---------------------- --- | ----------------- 2-2-2 ---- |
| - 5 - 5 - 4 - 5 ----- 0-0-0 ---- | ---- 5 - 5 - 4 - 5 ----- 7 - --- | - 5 - 5 - 4 - 5 ----- 0-0-0 ---- |
| - 0 - 0 - 0 - 0 - 0 ----------- | ---- 0 - 0 - 0 - 0 - 0 - 0 - 0 - | - 0 - 0 - 0 - 0 - 0 - 0-0-0 ---- |
| ----------------- 3-3-3 ---- | ---------------------- --- | -------------------------- |
| ------------------------- | - 2 ------ 2 ------ 2 ---- | - ---------------------- |
| ------------------------- | - 3 ------ 3 ------ 3 ---- | - ---------------------- |
| ------------------------- | - 2 ------ 2 ------ 2 ---- | - ---------------------- |
| ---- 5 - 5 - 4 - 5 ----- 7 ----- | - 0 ------ 0 ------ 0 ---- | - -3 ------- 5 ------------ |
| ---- 0 - 0 - 0 - 0 - 0 - 0 - 0 - | --------------------- | - -3 ------- 5 ------------ |
| ------------------------- | --------------------- | - -1 ---- 1 - 3 ------------ |
 Живей
э | ------------------- | ------------------ | --------- ---------- |
B | ------------------- | ------------------ | --------- ---------- |
G | ------------------- | ------------------ | --------- ------- 2 - |
D | ---------------- 2 - | ------------------ | --------- ------- 2 - |
| ---------------- 2 - | ------------------ | --------- ------- 0 - |
E | ---------------- 0 - | ------------------ | --------- ---------- |
| -------------------- | ------------------- | -------- ---------- |
| -------------------- | ------------------- | -------- ---------- |
| -------------------- | ------------------- | -------- ---------- |
| ----- 2 -------------- | ---------------- 2 - | -------- ---------- |
| ----- 2 -------------- | ---------------- 2 - | -------- ---------- |
| ----- 0 -------------- | ---------------- 0 - | -------- ---------- |
| -------------------- |
| -------------------- |
| ---------------- 2 --- |
| ---------------- 2 --- |
| ---------------- 0 --- |
| -------------------- |
| -------------------- | -------------------- | ------- ----------- |
| -------------------- | -------------------- | ------- ----------- |
| ----------------- 2 - | -------------------- | ------- ----------- |
| ---- 2 ------------ 2 - | ---- 2 ------------ 2 - | ------- ----------- |
| ---- 2 ------------ 0 - | ---- 2 ------------ 2 - | ------- ----------- |
| ---- 0 --------------- | ---- 0 ------------ 0 - | ------- ----------- |
| ------------------- | -------------------- | -------- ------------ |
| ------------------- | -------------------- | -------- ------------ |
| ---------------- 2 - | ----------------- 2 - | -------- ------------ |
| ---------------- 2 - | ---- 2 ------------ 2 - | ---- 2 --- --------- 2 - |
| ---------------- 0 - | ---- 2 ------------ 0 - | ---- 2 --- --------- 2 - |
| ------------------- | ---- 0 --------------- | ---- 0 --- --------- 0 - |
| ------------------ | --------------------- | -------- ------------- |
| ------------------ | --------------------- | -------- ------------- |
| ------------------ | --------------------- | -------- ------------- |
| ------------------ | -------- 2 ------- 2 ---- | -------- 2 ------- 2 ---- |
| ------------------ | -------- 2 ------- 2 ---- | -------- 2 ------- 2 ---- |
| ------------------ | -------- 0 ---- 3 - 0 ---- | -------- 0 ---- 3 - 0 ---- |
| --------------------- | ------------------ |
| --------------------- | ------------------ |
| --------------------- | ------------------ |
| -------- 2 ------- 2 ---- | ------------------ |
| -------- 2 ------- 2 ---- | ------------------ |
| -------- 0 ---- 3 - 0 ---- | ------------------ |
| ------------------- | ----------------------- | ----- -------------------- |
| ------------------- | ----------------------- | ----- -------------------- |
| ------------------- | ----------------------- | ----- -------------------- |
| ---------------- 2 - | ------- 2 --------------- | ----- ----------------- 2 - |
| ---------------- 2 - | ------- 2 ------- 2 - 2 ---- | ----- 4 - 4 ----- 5 - 5 ---- 2 - |
| ---------------- 0 - | ---- 3b - 0 ---- 4 ---------- | - 5 --- ----- 7 ---------- 0 - |
| ----------------------- | ------------------------- | ---------------------- |
| ----------------------- | ------------------------- | ---------------------- |
| ----------------------- | ------------------------- | ---------------------- |
| ------- 2 --------------- | ---------------------- 2 - | ------ 2 ---- 2 ---- 2 - 2 - |
| ------- 2 ------- 2 - 2 ---- | ----- 4 - 4 ----- 5 - 5 ---- 2 - | ------ 2 ---- 2 ---- 2 - 2 - |
| ---- 3b - 0 ---- 4 ---------- | - 5 -------- 7 ---------- 0 - | ------ 0 ---- 0 ---- 0 - 0 - |
| ---------------------- | ----------------------- | - ------------------------ |
| ---------------------- | ----------------------- | - ------------------------ |
| ---------------------- | ----------------------- | - ------------------------ |
| ------ 2 ---- 2 ---- 2 - 2 - | ------- 2 --------------- | - --------------------- 2 - |
| ------ 2 ---- 2 ---- 2 - 2 - | ------- 2 ------- 2 - 2 ---- | - --- 4 - 4 ----- 5 - 5 ----- 2 - |
| ------ 0 ---- 0 ---- 0 - 0 - | ---- 3b - 0 ---- 4 ---------- | - 5 -------- 7 -------- 0 - 0 - |
| ------------------------- | ---------------------- | ----------------------- |
| ------------------------- | ---------------------- | ----------------------- |
| ------------------------- | ---------------------- | ----------------------- |
| ---- 2 - 2 - 2 - 2 - 2 - 2 - 2 - | ------ 2 ---- 2 ---- 2 - 2 - | ------- 2 --------------- |
| ---- 2 - 2 - 2 - 2 - 2 - 2 - 2 - | ------ 2 ---- 2 ---- 2 - 2 - | ------- 2 ------- 2 - 2 ---- |
| ---- 0 - 0 - 0 - 0 - 0 - 0 - 0 - | ------ 0 ---- 0 ---- 0 - 0 - | ---- 3b - 0 ---- 4 ---------- |
| ------------------------- | ----------------------- - | ------------------------- |
| ------------------------- | ----------------------- - | ------------------------- |
| ---------------------- 2 - | ---- 2 - 2 ---- 2 - 2 - 2 - 2 - - | - 2 - 2 - 2 - 2 - 2 ---- 2 - 2 - |

































 































 






 


















 
Наслаждайтесь !

Исполнитель: AC/DC

Поделись с друзьями

В соц. сетях
В блоге
На форуме